Home
Forum Home Forum Home > Doe Maar > Gevraagd
  Actieve onderwerpen Actieve onderwerpen
  FAQ FAQ  Doorzoek dit Forum   Registreren Registreren  Inloggen Inloggen


Tabs de vrolijke padvinder

 Beantwoorden Beantwoorden
Schrijver
Bericht
Jannick View Drop Down
Newbie
Newbie


Lid geworden: 20-Augustus-2008
Locatie: Netherlands
Points: 4
Post Options Post Options   Thanks (0) Thanks(0)   Quote Jannick Quote  BeantwoordenReply Direct Link To This Post Onderwerp: Tabs de vrolijke padvinder
    Geplaatst op: 20-Augustus-2008 om 23:46
Hoi,

Ik zoek de (bass) tabs van het nummer De Vrolijke Padvinder. Het is een keer gespeeld, en staat op het album "Echt Alles!" van Doe Maar. Op Youtube is een cover te vinden, van Amehoela/Umopop. Ik ben zelf niet goed in het spelen op gehoor, helaas..

Gegroet,

Jannick Bolten
Terug naar boven
pygmydanny View Drop Down
Top Poster
Top Poster
Avatar

Lid geworden: 05-April-2004
Locatie: Belgium
Points: 580
Post Options Post Options   Thanks (0) Thanks(0)   Quote pygmydanny Quote  BeantwoordenReply Direct Link To This Post Geplaatst op: 21-Augustus-2008 om 10:04
ik zal het je straks uittypen, stuur me je mailadres maar via de PM

Aangepast door pygmydanny - 21-Augustus-2008 om 10:04
Terug naar boven
JeroenG View Drop Down
Top Poster
Top Poster


Lid geworden: 20-Juni-2006
Locatie: Netherlands
Points: 276
Post Options Post Options   Thanks (0) Thanks(0)   Quote JeroenG Quote  BeantwoordenReply Direct Link To This Post Geplaatst op: 21-Augustus-2008 om 14:01
Misschien heb ik de tabs nog wel ergens liggen. Ik zat destijds zelf in AMeHOELA.
Terug naar boven
Jannick View Drop Down
Newbie
Newbie


Lid geworden: 20-Augustus-2008
Locatie: Netherlands
Points: 4
Post Options Post Options   Thanks (0) Thanks(0)   Quote Jannick Quote  BeantwoordenReply Direct Link To This Post Geplaatst op: 21-Augustus-2008 om 17:19
Allebeide alvast heel erg bedankt! Hier ben ik erg mee geholpen, en ik wacht met smart op een mail =].

Bedankt nogmaals!

Edit 21:16: Inmiddels de tabs in mijn inbox, bedankt!


Aangepast door Jannick - 21-Augustus-2008 om 21:17
Terug naar boven
JeroenG View Drop Down
Top Poster
Top Poster


Lid geworden: 20-Juni-2006
Locatie: Netherlands
Points: 276
Post Options Post Options   Thanks (0) Thanks(0)   Quote JeroenG Quote  BeantwoordenReply Direct Link To This Post Geplaatst op: 15-September-2008 om 00:49

Hoi,

Excuus dat ik er niet meer aan gedacht heb. Ik was de laatste weken zo druk dat het er helemaal bij ingeschoten is.

Gelukkig ben je inmiddels voorzien lees ik.

Terug naar boven
Peter2671 View Drop Down
Newbie
Newbie


Lid geworden: 21-Maart-2013
Points: 2
Post Options Post Options   Thanks (0) Thanks(0)   Quote Peter2671 Quote  BeantwoordenReply Direct Link To This Post Geplaatst op: 21-Maart-2013 om 15:00
Excuses dat ik een oud topic omhoog kick, maar zou ik de basstabs voor deze ook mogen ontvangen aubSmile
Terug naar boven
pygmydanny View Drop Down
Top Poster
Top Poster
Avatar

Lid geworden: 05-April-2004
Locatie: Belgium
Points: 580
Post Options Post Options   Thanks (0) Thanks(0)   Quote pygmydanny Quote  BeantwoordenReply Direct Link To This Post Geplaatst op: 21-Maart-2013 om 15:33
Even kijken of ie er zo goed op staat (kan het even aanpassen als je wil want volgens mij speelde Henny ze onlangs zonder de hoogste snaar te gebruiken)

Bastablatuur De Vrolijke Padvinder

 

Deel 1

--------------------------------------------

-2-2---5--4--2------2-2--5-4--2--------

------------------2-------------------------

--------------------------------------------

 

-----------4--------------------------------

-2-2--5-----5-2-----2-2--5-4--2--------

-------------------2------------------------

--------------------------------------------

 

tussenstuk 1

--------------------------------------------

--------------------------------------------

--7----------0-3--3-0-5------------------

-----0-----3-------------------------------

 

--------------------------------------------

--------------------------------------------

--7-----------0-3--0-3-0-5---------------

-----0-----3--------------------------------

 

tussenstuk 2

--------------------------------------------

--------------------------------------------

-2--5-5--------------5-7-7---------------

----------3--0--5------------7--0--------

 

--------------------------------------------

--------------------------------------------

-2--5-5------------------------------------

----------3--0--5---3---5-5--3--0--------

 

einde = deel 1 allen de laatste basnoten zijn:

--------------------------------------------

-2-2--5--4--2-----------------------------

-----------------2-----------3-3-3-5-2 (stilte)

--------------------------------------------



Aangepast door pygmydanny - 21-Maart-2013 om 15:37
Terug naar boven
Peter2671 View Drop Down
Newbie
Newbie


Lid geworden: 21-Maart-2013
Points: 2
Post Options Post Options   Thanks (0) Thanks(0)   Quote Peter2671 Quote  BeantwoordenReply Direct Link To This Post Geplaatst op: 21-Maart-2013 om 15:53
Enorm bedankt!
Thumbs Up
Terug naar boven
Hampshire View Drop Down
Top Poster
Top Poster
Avatar

Lid geworden: 16-Juli-2008
Locatie: Netherlands
Points: 155
Post Options Post Options   Thanks (0) Thanks(0)   Quote Hampshire Quote  BeantwoordenReply Direct Link To This Post Geplaatst op: 22-Maart-2013 om 17:39
Wat gaaf!!!
Leuk pygmydanny!! Heb je het zelf op gehoor omgezet naar schrift?
Terug naar boven
 Beantwoorden Beantwoorden

Spring naar Forum Forum Permissions View Drop Down

Forum Software by Web Wiz Forums® version 12.01
Copyright ©2001-2018 Web Wiz Ltd.